ISO-10303-21;
HEADER;
/* Generated by software containing ST-Developer
 * from STEP Tools, Inc. (www.steptools.com) 
 */

FILE_DESCRIPTION(
/* description */ (''),
/* implementation_level */ '2;1');

FILE_NAME(
/* name */ 'screen-clip.step',
/* time_stamp */ '2024-04-26T15:48:14+02:00',
/* author */ (''),
/* organization */ (''),
/* preprocessor_version */ 'ST-DEVELOPER v20',
/* originating_system */ 'Autodesk Translation Framework v12.20.1.177',

/* authorisation */ '');

FILE_SCHEMA (('AUTOMOTIVE_DESIGN { 1 0 10303 214 3 1 1 }'));
ENDSEC;

DATA;
#10=MECHANICAL_DESIGN_GEOMETRIC_PRESENTATION_REPRESENTATION('',(#17),#362);
#11=ITEM_DEFINED_TRANSFORMATION($,$,#230,#242);
#12=(
REPRESENTATION_RELATIONSHIP($,$,#373,#372)
REPRESENTATION_RELATIONSHIP_WITH_TRANSFORMATION(#11)
SHAPE_REPRESENTATION_RELATIONSHIP()
);
#13=CONTEXT_DEPENDENT_SHAPE_REPRESENTATION(#12,#371);
#14=NEXT_ASSEMBLY_USAGE_OCCURRENCE('screen-clip:1','screen-clip:1',
'screen-clip:1',#375,#376,'screen-clip:1');
#15=SHAPE_REPRESENTATION_RELATIONSHIP('SRR','None',#373,#16);
#16=ADVANCED_BREP_SHAPE_REPRESENTATION('',(#18),#361);
#17=STYLED_ITEM('',(#386),#18);
#18=MANIFOLD_SOLID_BREP('K\X\F6rper1',#216);
#19=FACE_OUTER_BOUND('',#30,.T.);
#20=FACE_OUTER_BOUND('',#31,.T.);
#21=FACE_OUTER_BOUND('',#32,.T.);
#22=FACE_OUTER_BOUND('',#33,.T.);
#23=FACE_OUTER_BOUND('',#34,.T.);
#24=FACE_OUTER_BOUND('',#35,.T.);
#25=FACE_OUTER_BOUND('',#36,.T.);
#26=FACE_OUTER_BOUND('',#37,.T.);
#27=FACE_OUTER_BOUND('',#38,.T.);
#28=FACE_OUTER_BOUND('',#39,.T.);
#29=FACE_OUTER_BOUND('',#40,.T.);
#30=EDGE_LOOP('',(#140,#141,#142,#143,#144));
#31=EDGE_LOOP('',(#145,#146,#147,#148));
#32=EDGE_LOOP('',(#149,#150,#151,#152,#153));
#33=EDGE_LOOP('',(#154,#155,#156,#157,#158,#159,#160));
#34=EDGE_LOOP('',(#161,#162,#163,#164));
#35=EDGE_LOOP('',(#165,#166,#167,#168));
#36=EDGE_LOOP('',(#169,#170,#171,#172));
#37=EDGE_LOOP('',(#173,#174,#175,#176,#177,#178));
#38=EDGE_LOOP('',(#179,#180,#181,#182,#183,#184));
#39=EDGE_LOOP('',(#185,#186,#187,#188,#189));
#40=EDGE_LOOP('',(#190,#191,#192,#193));
#41=LINE('',#303,#68);
#42=LINE('',#305,#69);
#43=LINE('',#307,#70);
#44=LINE('',#309,#71);
#45=LINE('',#310,#72);
#46=LINE('',#314,#73);
#47=LINE('',#315,#74);
#48=LINE('',#316,#75);
#49=LINE('',#319,#76);
#50=LINE('',#321,#77);
#51=LINE('',#323,#78);
#52=LINE('',#324,#79);
#53=LINE('',#327,#80);
#54=LINE('',#329,#81);
#55=LINE('',#331,#82);
#56=LINE('',#333,#83);
#57=LINE('',#335,#84);
#58=LINE('',#336,#85);
#59=LINE('',#339,#86);
#60=LINE('',#340,#87);
#61=LINE('',#343,#88);
#62=LINE('',#344,#89);
#63=LINE('',#347,#90);
#64=LINE('',#348,#91);
#65=LINE('',#350,#92);
#66=LINE('',#351,#93);
#67=LINE('',#354,#94);
#68=VECTOR('',#249,10.);
#69=VECTOR('',#250,10.);
#70=VECTOR('',#251,10.);
#71=VECTOR('',#252,10.);
#72=VECTOR('',#253,10.);
#73=VECTOR('',#256,10.);
#74=VECTOR('',#257,10.);
#75=VECTOR('',#258,10.);
#76=VECTOR('',#261,10.);
#77=VECTOR('',#262,10.);
#78=VECTOR('',#263,10.);
#79=VECTOR('',#264,10.);
#80=VECTOR('',#267,10.);
#81=VECTOR('',#268,10.);
#82=VECTOR('',#269,10.);
#83=VECTOR('',#270,10.);
#84=VECTOR('',#271,10.);
#85=VECTOR('',#272,10.);
#86=VECTOR('',#275,10.);
#87=VECTOR('',#276,10.);
#88=VECTOR('',#279,10.);
#89=VECTOR('',#280,10.);
#90=VECTOR('',#283,10.);
#91=VECTOR('',#284,10.);
#92=VECTOR('',#287,10.);
#93=VECTOR('',#288,10.);
#94=VECTOR('',#293,10.);
#95=VERTEX_POINT('',#301);
#96=VERTEX_POINT('',#302);
#97=VERTEX_POINT('',#304);
#98=VERTEX_POINT('',#306);
#99=VERTEX_POINT('',#308);
#100=VERTEX_POINT('',#312);
#101=VERTEX_POINT('',#313);
#102=VERTEX_POINT('',#318);
#103=VERTEX_POINT('',#320);
#104=VERTEX_POINT('',#322);
#105=VERTEX_POINT('',#326);
#106=VERTEX_POINT('',#328);
#107=VERTEX_POINT('',#330);
#108=VERTEX_POINT('',#332);
#109=VERTEX_POINT('',#334);
#110=VERTEX_POINT('',#338);
#111=VERTEX_POINT('',#342);
#112=VERTEX_POINT('',#346);
#113=EDGE_CURVE('',#95,#96,#41,.F.);
#114=EDGE_CURVE('',#97,#95,#42,.T.);
#115=EDGE_CURVE('',#97,#98,#43,.T.);
#116=EDGE_CURVE('',#98,#99,#44,.T.);
#117=EDGE_CURVE('',#99,#96,#45,.T.);
#118=EDGE_CURVE('',#100,#101,#46,.T.);
#119=EDGE_CURVE('',#101,#97,#47,.T.);
#120=EDGE_CURVE('',#95,#100,#48,.T.);
#121=EDGE_CURVE('',#99,#102,#49,.T.);
#122=EDGE_CURVE('',#102,#103,#50,.T.);
#123=EDGE_CURVE('',#103,#104,#51,.T.);
#124=EDGE_CURVE('',#96,#104,#52,.T.);
#125=EDGE_CURVE('',#105,#103,#53,.T.);
#126=EDGE_CURVE('',#106,#105,#54,.T.);
#127=EDGE_CURVE('',#107,#106,#55,.T.);
#128=EDGE_CURVE('',#108,#107,#56,.T.);
#129=EDGE_CURVE('',#108,#109,#57,.T.);
#130=EDGE_CURVE('',#109,#104,#58,.T.);
#131=EDGE_CURVE('',#102,#110,#59,.T.);
#132=EDGE_CURVE('',#110,#105,#60,.T.);
#133=EDGE_CURVE('',#106,#111,#61,.T.);
#134=EDGE_CURVE('',#111,#110,#62,.T.);
#135=EDGE_CURVE('',#112,#107,#63,.T.);
#136=EDGE_CURVE('',#111,#112,#64,.T.);
#137=EDGE_CURVE('',#108,#101,#65,.T.);
#138=EDGE_CURVE('',#98,#112,#66,.T.);
#139=EDGE_CURVE('',#109,#100,#67,.T.);
#140=ORIENTED_EDGE('',*,*,#113,.F.);
#141=ORIENTED_EDGE('',*,*,#114,.F.);
#142=ORIENTED_EDGE('',*,*,#115,.T.);
#143=ORIENTED_EDGE('',*,*,#116,.T.);
#144=ORIENTED_EDGE('',*,*,#117,.T.);
#145=ORIENTED_EDGE('',*,*,#118,.T.);
#146=ORIENTED_EDGE('',*,*,#119,.T.);
#147=ORIENTED_EDGE('',*,*,#114,.T.);
#148=ORIENTED_EDGE('',*,*,#120,.T.);
#149=ORIENTED_EDGE('',*,*,#121,.T.);
#150=ORIENTED_EDGE('',*,*,#122,.T.);
#151=ORIENTED_EDGE('',*,*,#123,.T.);
#152=ORIENTED_EDGE('',*,*,#124,.F.);
#153=ORIENTED_EDGE('',*,*,#117,.F.);
#154=ORIENTED_EDGE('',*,*,#123,.F.);
#155=ORIENTED_EDGE('',*,*,#125,.F.);
#156=ORIENTED_EDGE('',*,*,#126,.F.);
#157=ORIENTED_EDGE('',*,*,#127,.F.);
#158=ORIENTED_EDGE('',*,*,#128,.F.);
#159=ORIENTED_EDGE('',*,*,#129,.T.);
#160=ORIENTED_EDGE('',*,*,#130,.T.);
#161=ORIENTED_EDGE('',*,*,#122,.F.);
#162=ORIENTED_EDGE('',*,*,#131,.T.);
#163=ORIENTED_EDGE('',*,*,#132,.T.);
#164=ORIENTED_EDGE('',*,*,#125,.T.);
#165=ORIENTED_EDGE('',*,*,#133,.F.);
#166=ORIENTED_EDGE('',*,*,#126,.T.);
#167=ORIENTED_EDGE('',*,*,#132,.F.);
#168=ORIENTED_EDGE('',*,*,#134,.F.);
#169=ORIENTED_EDGE('',*,*,#135,.T.);
#170=ORIENTED_EDGE('',*,*,#127,.T.);
#171=ORIENTED_EDGE('',*,*,#133,.T.);
#172=ORIENTED_EDGE('',*,*,#136,.T.);
#173=ORIENTED_EDGE('',*,*,#137,.F.);
#174=ORIENTED_EDGE('',*,*,#128,.T.);
#175=ORIENTED_EDGE('',*,*,#135,.F.);
#176=ORIENTED_EDGE('',*,*,#138,.F.);
#177=ORIENTED_EDGE('',*,*,#115,.F.);
#178=ORIENTED_EDGE('',*,*,#119,.F.);
#179=ORIENTED_EDGE('',*,*,#116,.F.);
#180=ORIENTED_EDGE('',*,*,#138,.T.);
#181=ORIENTED_EDGE('',*,*,#136,.F.);
#182=ORIENTED_EDGE('',*,*,#134,.T.);
#183=ORIENTED_EDGE('',*,*,#131,.F.);
#184=ORIENTED_EDGE('',*,*,#121,.F.);
#185=ORIENTED_EDGE('',*,*,#124,.T.);
#186=ORIENTED_EDGE('',*,*,#130,.F.);
#187=ORIENTED_EDGE('',*,*,#139,.T.);
#188=ORIENTED_EDGE('',*,*,#120,.F.);
#189=ORIENTED_EDGE('',*,*,#113,.T.);
#190=ORIENTED_EDGE('',*,*,#139,.F.);
#191=ORIENTED_EDGE('',*,*,#129,.F.);
#192=ORIENTED_EDGE('',*,*,#137,.T.);
#193=ORIENTED_EDGE('',*,*,#118,.F.);
#194=PLANE('',#231);
#195=PLANE('',#232);
#196=PLANE('',#233);
#197=PLANE('',#234);
#198=PLANE('',#235);
#199=PLANE('',#236);
#200=PLANE('',#237);
#201=PLANE('',#238);
#202=PLANE('',#239);
#203=PLANE('',#240);
#204=PLANE('',#241);
#205=ADVANCED_FACE('',(#19),#194,.T.);
#206=ADVANCED_FACE('',(#20),#195,.T.);
#207=ADVANCED_FACE('',(#21),#196,.T.);
#208=ADVANCED_FACE('',(#22),#197,.T.);
#209=ADVANCED_FACE('',(#23),#198,.T.);
#210=ADVANCED_FACE('',(#24),#199,.T.);
#211=ADVANCED_FACE('',(#25),#200,.F.);
#212=ADVANCED_FACE('',(#26),#201,.T.);
#213=ADVANCED_FACE('',(#27),#202,.T.);
#214=ADVANCED_FACE('',(#28),#203,.T.);
#215=ADVANCED_FACE('',(#29),#204,.F.);
#216=CLOSED_SHELL('',(#205,#206,#207,#208,#209,#210,#211,#212,#213,#214,
#215));
#217=DERIVED_UNIT_ELEMENT(#219,1.);
#218=DERIVED_UNIT_ELEMENT(#364,-3.);
#219=(
MASS_UNIT()
NAMED_UNIT(*)
SI_UNIT(.KILO.,.GRAM.)
);
#220=DERIVED_UNIT((#217,#218));
#221=MEASURE_REPRESENTATION_ITEM('density measure',
POSITIVE_RATIO_MEASURE(7850.),#220);
#222=PROPERTY_DEFINITION_REPRESENTATION(#227,#224);
#223=PROPERTY_DEFINITION_REPRESENTATION(#228,#225);
#224=REPRESENTATION('material name',(#226),#361);
#225=REPRESENTATION('density',(#221),#361);
#226=DESCRIPTIVE_REPRESENTATION_ITEM('Stahl','Stahl');
#227=PROPERTY_DEFINITION('material property','material name',#376);
#228=PROPERTY_DEFINITION('material property','density of part',#376);
#229=AXIS2_PLACEMENT_3D('',#298,#243,#244);
#230=AXIS2_PLACEMENT_3D('',#299,#245,#246);
#231=AXIS2_PLACEMENT_3D('',#300,#247,#248);
#232=AXIS2_PLACEMENT_3D('',#311,#254,#255);
#233=AXIS2_PLACEMENT_3D('',#317,#259,#260);
#234=AXIS2_PLACEMENT_3D('',#325,#265,#266);
#235=AXIS2_PLACEMENT_3D('',#337,#273,#274);
#236=AXIS2_PLACEMENT_3D('',#341,#277,#278);
#237=AXIS2_PLACEMENT_3D('',#345,#281,#282);
#238=AXIS2_PLACEMENT_3D('',#349,#285,#286);
#239=AXIS2_PLACEMENT_3D('',#352,#289,#290);
#240=AXIS2_PLACEMENT_3D('',#353,#291,#292);
#241=AXIS2_PLACEMENT_3D('',#355,#294,#295);
#242=AXIS2_PLACEMENT_3D('',#356,#296,#297);
#243=DIRECTION('axis',(0.,0.,1.));
#244=DIRECTION('refdir',(1.,0.,0.));
#245=DIRECTION('axis',(0.,0.,1.));
#246=DIRECTION('refdir',(1.,0.,0.));
#247=DIRECTION('center_axis',(-0.813733471206735,0.,0.581238193719096));
#248=DIRECTION('ref_axis',(0.581238193719096,0.,0.813733471206735));
#249=DIRECTION('',(-0.581238193719096,0.,-0.813733471206735));
#250=DIRECTION('',(0.,1.,0.));
#251=DIRECTION('',(0.581238193719096,0.,0.813733471206735));
#252=DIRECTION('',(0.,1.,0.));
#253=DIRECTION('',(-0.243268122190447,0.908200989511002,-0.340575371066626));
#254=DIRECTION('center_axis',(-1.,0.,0.));
#255=DIRECTION('ref_axis',(0.,0.,1.));
#256=DIRECTION('',(0.,-1.,0.));
#257=DIRECTION('',(0.,0.,1.));
#258=DIRECTION('',(0.,0.,-1.));
#259=DIRECTION('center_axis',(0.,0.351123441588392,0.936329177569045));
#260=DIRECTION('ref_axis',(1.,0.,0.));
#261=DIRECTION('',(0.,-0.936329177569045,0.351123441588392));
#262=DIRECTION('',(1.,0.,0.));
#263=DIRECTION('',(0.,0.936329177569045,-0.351123441588392));
#264=DIRECTION('',(1.,0.,0.));
#265=DIRECTION('center_axis',(1.,0.,0.));
#266=DIRECTION('ref_axis',(0.,1.,0.));
#267=DIRECTION('',(0.,1.,0.));
#268=DIRECTION('',(0.,0.,1.));
#269=DIRECTION('',(0.,-1.,0.));
#270=DIRECTION('',(0.,0.,1.));
#271=DIRECTION('',(0.,1.,0.));
#272=DIRECTION('',(0.,0.,1.));
#273=DIRECTION('center_axis',(0.,0.,1.));
#274=DIRECTION('ref_axis',(1.,0.,0.));
#275=DIRECTION('',(0.,-1.,0.));
#276=DIRECTION('',(1.,0.,0.));
#277=DIRECTION('center_axis',(0.,-1.,0.));
#278=DIRECTION('ref_axis',(1.,0.,0.));
#279=DIRECTION('',(-1.,0.,0.));
#280=DIRECTION('',(0.,0.,1.));
#281=DIRECTION('center_axis',(0.,0.,1.));
#282=DIRECTION('ref_axis',(1.,0.,0.));
#283=DIRECTION('',(1.,0.,0.));
#284=DIRECTION('',(0.,1.,0.));
#285=DIRECTION('center_axis',(0.,-1.,0.));
#286=DIRECTION('ref_axis',(1.,0.,0.));
#287=DIRECTION('',(-1.,0.,0.));
#288=DIRECTION('',(0.,0.,1.));
#289=DIRECTION('center_axis',(-1.,0.,0.));
#290=DIRECTION('ref_axis',(0.,-1.,0.));
#291=DIRECTION('center_axis',(0.,1.,0.));
#292=DIRECTION('ref_axis',(-1.,0.,0.));
#293=DIRECTION('',(-1.,0.,0.));
#294=DIRECTION('center_axis',(0.,0.,1.));
#295=DIRECTION('ref_axis',(1.,0.,0.));
#296=DIRECTION('',(0.,0.,1.));
#297=DIRECTION('',(1.,0.,0.));
#298=CARTESIAN_POINT('',(0.,0.,0.));
#299=CARTESIAN_POINT('',(0.,0.,0.));
#300=CARTESIAN_POINT('Origin',(-1.5,16.,5.1));
#301=CARTESIAN_POINT('',(-3.,26.,3.));
#302=CARTESIAN_POINT('',(-2.11428571428571,26.,4.24));
#303=CARTESIAN_POINT('',(-1.11824324324324,26.,5.63445945945946));
#304=CARTESIAN_POINT('',(-3.,6.,3.));
#305=CARTESIAN_POINT('',(-3.,26.,3.));
#306=CARTESIAN_POINT('',(0.,6.,7.2));
#307=CARTESIAN_POINT('',(-2.4527027027027,6.,3.76621621621622));
#308=CARTESIAN_POINT('',(0.,18.1066666666667,7.2));
#309=CARTESIAN_POINT('',(0.,16.,7.2));
#310=CARTESIAN_POINT('',(0.290100604944766,17.0236244082062,7.60614084692267));
#311=CARTESIAN_POINT('Origin',(-3.,16.,1.5));
#312=CARTESIAN_POINT('',(-3.,26.,0.));
#313=CARTESIAN_POINT('',(-3.,6.,0.));
#314=CARTESIAN_POINT('',(-3.,26.,0.));
#315=CARTESIAN_POINT('',(-3.,6.,0.));
#316=CARTESIAN_POINT('',(-3.,26.,4.24));
#317=CARTESIAN_POINT('Origin',(5.925,18.,7.24));
#318=CARTESIAN_POINT('',(0.,10.,10.24));
#319=CARTESIAN_POINT('',(0.,22.6969863013699,5.4786301369863));
#320=CARTESIAN_POINT('',(7.9,10.,10.24));
#321=CARTESIAN_POINT('',(5.925,10.,10.24));
#322=CARTESIAN_POINT('',(7.9,26.,4.24));
#323=CARTESIAN_POINT('',(7.9,13.9298630136986,8.76630136986301));
#324=CARTESIAN_POINT('',(6.9125,26.,4.24));
#325=CARTESIAN_POINT('Origin',(7.9,6.,0.));
#326=CARTESIAN_POINT('',(7.9,0.,10.24));
#327=CARTESIAN_POINT('',(7.9,6.5,10.24));
#328=CARTESIAN_POINT('',(7.9,0.,7.24));
#329=CARTESIAN_POINT('',(7.9,0.,7.24));
#330=CARTESIAN_POINT('',(7.9,6.,7.24));
#331=CARTESIAN_POINT('',(7.9,6.5,7.24));
#332=CARTESIAN_POINT('',(7.9,6.,0.));
#333=CARTESIAN_POINT('',(7.9,6.,0.));
#334=CARTESIAN_POINT('',(7.9,26.,0.));
#335=CARTESIAN_POINT('',(7.9,0.,0.));
#336=CARTESIAN_POINT('',(7.9,26.,0.));
#337=CARTESIAN_POINT('Origin',(3.95,13.,10.24));
#338=CARTESIAN_POINT('',(0.,0.,10.24));
#339=CARTESIAN_POINT('',(0.,19.5,10.24));
#340=CARTESIAN_POINT('',(1.975,0.,10.24));
#341=CARTESIAN_POINT('Origin',(0.,0.,7.24));
#342=CARTESIAN_POINT('',(0.,0.,7.24));
#343=CARTESIAN_POINT('',(1.975,0.,7.24));
#344=CARTESIAN_POINT('',(0.,0.,7.24));
#345=CARTESIAN_POINT('Origin',(3.95,13.,7.24));
#346=CARTESIAN_POINT('',(0.,6.,7.24));
#347=CARTESIAN_POINT('',(7.9,6.,7.24));
#348=CARTESIAN_POINT('',(0.,19.5,7.24));
#349=CARTESIAN_POINT('Origin',(0.,6.,0.));
#350=CARTESIAN_POINT('',(0.,6.,0.));
#351=CARTESIAN_POINT('',(0.,6.,0.));
#352=CARTESIAN_POINT('Origin',(0.,26.,0.));
#353=CARTESIAN_POINT('Origin',(7.9,26.,0.));
#354=CARTESIAN_POINT('',(7.9,26.,0.));
#355=CARTESIAN_POINT('Origin',(3.95,16.,0.));
#356=CARTESIAN_POINT('',(0.,0.,0.));
#357=UNCERTAINTY_MEASURE_WITH_UNIT(LENGTH_MEASURE(0.01),#363,
'DISTANCE_ACCURACY_VALUE',
'Maximum model space distance between geometric entities at asserted c
onnectivities');
#358=UNCERTAINTY_MEASURE_WITH_UNIT(LENGTH_MEASURE(0.01),#363,
'DISTANCE_ACCURACY_VALUE',
'Maximum model space distance between geometric entities at asserted c
onnectivities');
#359=UNCERTAINTY_MEASURE_WITH_UNIT(LENGTH_MEASURE(0.01),#363,
'DISTANCE_ACCURACY_VALUE',
'Maximum model space distance between geometric entities at asserted c
onnectivities');
#360=(
GEOMETRIC_REPRESENTATION_CONTEXT(3)
GLOBAL_UNCERTAINTY_ASSIGNED_CONTEXT((#357))
GLOBAL_UNIT_ASSIGNED_CONTEXT((#363,#365,#366))
REPRESENTATION_CONTEXT('','3D')
);
#361=(
GEOMETRIC_REPRESENTATION_CONTEXT(3)
GLOBAL_UNCERTAINTY_ASSIGNED_CONTEXT((#358))
GLOBAL_UNIT_ASSIGNED_CONTEXT((#363,#365,#366))
REPRESENTATION_CONTEXT('','3D')
);
#362=(
GEOMETRIC_REPRESENTATION_CONTEXT(3)
GLOBAL_UNCERTAINTY_ASSIGNED_CONTEXT((#359))
GLOBAL_UNIT_ASSIGNED_CONTEXT((#363,#365,#366))
REPRESENTATION_CONTEXT('','3D')
);
#363=(
LENGTH_UNIT()
NAMED_UNIT(*)
SI_UNIT(.MILLI.,.METRE.)
);
#364=(
LENGTH_UNIT()
NAMED_UNIT(*)
SI_UNIT($,.METRE.)
);
#365=(
NAMED_UNIT(*)
PLANE_ANGLE_UNIT()
SI_UNIT($,.RADIAN.)
);
#366=(
NAMED_UNIT(*)
SI_UNIT($,.STERADIAN.)
SOLID_ANGLE_UNIT()
);
#367=SHAPE_DEFINITION_REPRESENTATION(#369,#372);
#368=SHAPE_DEFINITION_REPRESENTATION(#370,#373);
#369=PRODUCT_DEFINITION_SHAPE('',$,#375);
#370=PRODUCT_DEFINITION_SHAPE('',$,#376);
#371=PRODUCT_DEFINITION_SHAPE($,$,#14);
#372=SHAPE_REPRESENTATION('',(#229,#242),#360);
#373=SHAPE_REPRESENTATION('',(#230),#361);
#374=PRODUCT_DEFINITION_CONTEXT('part definition',#382,'design');
#375=PRODUCT_DEFINITION('miata-other-parts','miata-other-parts v8',#377,
#374);
#376=PRODUCT_DEFINITION('screen-clip','screen-clip',#378,#374);
#377=PRODUCT_DEFINITION_FORMATION('',$,#384);
#378=PRODUCT_DEFINITION_FORMATION('',$,#385);
#379=PRODUCT_RELATED_PRODUCT_CATEGORY('miata-other-parts v8',
'miata-other-parts v8',(#384));
#380=PRODUCT_RELATED_PRODUCT_CATEGORY('screen-clip','screen-clip',(#385));
#381=APPLICATION_PROTOCOL_DEFINITION('international standard',
'automotive_design',2009,#382);
#382=APPLICATION_CONTEXT(
'Core Data for Automotive Mechanical Design Process');
#383=PRODUCT_CONTEXT('part definition',#382,'mechanical');
#384=PRODUCT('miata-other-parts','miata-other-parts v8',$,(#383));
#385=PRODUCT('screen-clip','screen-clip',$,(#383));
#386=PRESENTATION_STYLE_ASSIGNMENT((#387));
#387=SURFACE_STYLE_USAGE(.BOTH.,#388);
#388=SURFACE_SIDE_STYLE('',(#389));
#389=SURFACE_STYLE_FILL_AREA(#390);
#390=FILL_AREA_STYLE('Stahl - satiniert',(#391));
#391=FILL_AREA_STYLE_COLOUR('Stahl - satiniert',#392);
#392=COLOUR_RGB('Stahl - satiniert',0.627450980392157,0.627450980392157,
0.627450980392157);
ENDSEC;
END-ISO-10303-21;
